Farhat Guitar
Online Private Lessons – Contact Me
Prof. Marcos Farhat
+(54 911) 6577-1480

Queen| Bohemian Rhapsody
 Estilo:     
E|------------------------------------|----------16-18-18b20--|
B|---13--15-16-13--15-16-16pb18===r16-|----18-20--------------| 
G|-x----------------------------------|-17--------------------|
D|-x----------------------------------|-----------------------|
A|------------------------------------|-----------------------|
E|------------------------------------|-----------------------|

E|-20rb18-16-15-16-15h16p15----15-------------------------------------| 
B|--------------------------18----18-16-15---16-15h16p15----15--------| 
G|-------------------------------------------------------17----17--15-|
D|--------------------------------------------------------------------| 
A|--------------------------------------------------------------------|
E|--------------------------------------------------------------------|

E|----------------15-16-18-|----------------15-16-18--18b20--|-------------------------------------| 
B|-------15-16-18----------|-------15-16-18------------------|-15-16-13--15-16-13--15-16---16pb18--|
G|-15-17-------------------|-15-17---------------------------|-------------------------------------|
D|-------------------------|---------------------------------|-------------------------------------|
A|-------------------------|---------------------------------|-------------------------------------|
E|-------------------------|---------------------------------|-------------------------------------|
video
Hide picture