Farhat Guitar
Online Private Lessons – Contact Me
Prof. Marcos Farhat
+(54 911) 6577-1480

Pink Floyd| Shine on you crazy diamond
 Estilo:  Rock    
e|------------------------3----------------------------------|
B|--13b(15)-11-13-------3---6--------------------------------|
G|----------------12vs--------5b(7)r5b(7)v--5b(7)r5p3-5p3----|
D|--------------------------------------------------------5v-|
A|-----------------------------------------------------------|
E|-----------------------------------------------------------|

e|----18p15—---18v--17b(18)-17v-----------------------------------|
B|----------15------------------18p15-18b(20)v--18b(20)r18p15-15v-|
G|----------------------------------------------------------------|
D|----------------------------------------------------------------|
A|----------------------------------------------------------------|
E|----------------------------------------------------------------|

e|---18p15---18p15--18b(20)v--(20)r18-15-18--------------------------------------|
B|--------15------15------------------------18b(20)v-----------------------------|
G|---------------------------------------------------15b(17)r15b(19)r-12b-15-12v-|
D|-------------------------------------------------------------------------------|
A|-------------------------------------------------------------------------------|
E|-------------------------------------------------------------------------------|

e|--------------------------------------6--------------------------|
B|----------------------------------------5s6-8v--(11)r10p8----8vs-|
G|--7s5-3-------------------3-------6s8---------------------10-----|
D|--------5-------------------3-5v---------------------------------|
A|-----------5s3-1-------3s5---------------------------------------|
E|-----------------1s3v--------------------------------------------|

e|----------------------------------------------------------------------|
B|--11-13b(15)r13b(15)-13b(16)v--13b(16)v--13b(16)v---------------------|
G|--------------------------------------------------11v-11h12p11----11v-|
D|---------------------------------------------------------------13-----|
A|----------------------------------------------------------------------|
E|----------------------------------------------------------------------|

e|--15------15-----------------------15-15-17b(18)-(18)-17----------|
B|--18b(20)----18b(20)vr-15--18b(20)-----------------------18b(20)v-|
G|------------------------------------------------------------------|
D|------------------------------------------------------------------|
A|------------------------------------------------------------------|
E|------------------------------------------------------------------|

e|--------------------------------------------------------------------------|
B|--(20)r18p15-18-----------------------------------------------------------|
G|----------------17b(19)v--17b(19)r17p15---------3-5b(8)v-(8)r5p3-5-5b(7)v-|
D|----------------------------------------17vs--5---------------------------|
A|--------------------------------------------------------------------------|
E|--------------------------------------------------------------------------|

e|---------------------------------------|
B|--------3-6----------------------------|
G|--5b(7)-----6b(8)v--(7)r5p3-5-5b(7)vr--|
D|---------------------------------------|
A|---------------------------------------|
E|---------------------------------------|
video
Hide picture