Farhat Guitar
Online Private Lessons – Contact Me
Prof. Marcos Farhat
+(54 911) 6577-1480

Soda Stereo| En El Septimo Dia
 Estilo:     
E|---5---------3-----------5-----------3-----------5---------|
B|---7---------3-----------5-----------3-----------7---------|
G|-7-7-7-7-7---4-----------6-----------4---------7-7-7-7-7-7-|
D|-7---7-7-7-5---5-5-5-5-7---7-7-7-7-5---5-5-5-5-7---7-7-7-7-|
A|-5---5-5-5-5---5-5-5-5-7---7-7-7-7-5---5-5-5-5-5---5-5-5-5-|
E|-----------3---3-3-3-3-5---5-5-5-5-3---3-3-3-3-------------|

E|---5---------3-----------5-----------0-|
B|---7---------3-----------5-----------0-|
G|-7-7-7-7-7---4-----------6-----------1-|
D|-7---7-7-7-5---5-5-5-5-7---7-7-7-7-2---|
A|-5---5-5-5-5---5-5-5-5-7---7-7-7-7-2---|
E|-----------3---3-3-3-3-5---5-5-5-5-0---|
   
video
Hide picture