Farhat Guitar
Online Private Lessons – Contact Me
Prof. Marcos Farhat
+(54 911) 6577-1480

Metallica| The Unforgiven
 Estilo:  Heavy Metal    
E|----------------------|-----------------------| |-------------------------|-----------------------|
B|----------------------|-----------------------| |-------------------------|-----------------------|
G|----------------------|-12-12-11-11-----------| |-------------------------|-12-12-11-11-----------|
D|-12-10-9—9/10---------|-0--0--0--0--10-10-----| |-12-12-10-9—9/10---------|-0--0--0--0--10-10-----|
A|-0--0--0-0h-0-10--0-0-|-------------0--0--0-0-| |-0--0--0--0-0h-0-10--0-0-|-------------0--0--0-0-|
E|--------------0-------|-----------------------| |-----------------0-------|-----------------------|x3
                   PM-                     PM-                         PM-                     PM-
E|-------------------------------------------|-----------------------------------------------------|
B|-------------------------------------------|-----------------------------------------------------|
G|-------------------------------------------|-----------------------------------------------------|
D|-----9p0----7p0-----5p0-----5--------------|-10p0-----9p0-----7p0------5p0-------5---------------|
A|-0-0----0-0-----0-0-----0-0—3--3h5p3p0-5---|------0-0-----0-0-----0-0-------0-0--3---3h5p3-5--2--|
E|---------------------------------------3-/-|-----------------------------------------------3--0--|
   PM     PM      PM      PM                        PM      PM      PM        PM
video
Hide picture