Farhat Guitar
Online Private Lessons – Contact Me
Prof. Marcos Farhat
+(54 911) 6577-1480

Pink Floyd| Comfortably Numb
 Estilo:     
E|-------------------------------------------|-------------------------------7------------------------7-------|
B|----7b(1/4)-----7b(1/4)------x--x--7b(1/4)-|------7--------------------------10—-7--10b12v-------7-----10p7-|
G|----7b(1/4)-----7b(1/4)------x--x--7b(1/4)-|------7--9b11r9p7-----7--9b11v------------------9b11------------|
D|----x-------9v--x-------<9>--x—-x----------|--9v---------------9--------------------------------------------|
A|----x-----------x--------------------------|----------------------------------------------------------------|
E|-------------------------------------------|----------------------------------------------------------------|
E|---------------------------------------------------------------|----------|
B|---------------------------------------------------------------|--7b(1/4)-|
G|-9--9b10r9p7----9p7-----7--------------------------------------|--7b(1/4)-|
D|---------------------9-----9p7--9p7-----7------------------9v--|----------|
A|-------------------------------------9----—9--8--7-------------|----------|
E|----------------------------------------------------10--7------|----------|
video
Hide picture