Farhat Guitar
Online Private Lessons – Contact Me
Prof. Marcos Farhat
+(54 911) 6577-1480

Guns and Roses| My Michelle
 Estilo:  Hard Rock    
|-------------|-----------------------------------------------------------|
|-------------|-----------------------------------------------------------|
|-------------|-9-9--7--7-2-----------------4-4---------------------------|
|-6-4-2-------|-9-9--7--7-2--------2-2-4-2--4-4---------------------------|
|-------5-4-2-|-7-7--5--5-0--0-3-4-0-0-0-0--2-2-------------------2-2-4-2-|
|-------------|----------------------------------3b==3b--0--0-3-4-0-0-0-0-|
|----------------------------|----------------|-------------|
|----------------------------|----------------|-------------|
|-9-9--7--7-2----------------|----------------|-------------|
|-9-9--7--7-2--------2-2-4-2-|-4-4-6--4-4-6-4-|4-4-6--4-4-6-|
|-7-7--5--5-0--0-3-4-0-0-0-0-|-2-2-2--2-2-2-2-|2-2-2--2-2-2-|
|----------------------------|----------------|-------------|
|----------------------------|-------------------------------|----------------------------| |---|   |---| 
|----------------------------|-------------------------------|----------------------------| |---|   |---| 
|-9-9--7--7-2----------------|-4-4---------------------------|-9-9--7--7-2----------------| |-4-|   |-6-| 
|-9-9--7--7-2--------2-2-4-2-|-4-4---------------------------|-9-9--7--7-2--------2-2-4-2-| |-4-|   |-6-|
|-7-7--5--5-0--0-3-4-0-0-0-0-|-2-2-------------------2-2-4-2-|-7-7--5--5-0--0-3-4-0-0-0-0-| |-2-|   |-4-|
|----------------------------|-----3b==3b--0--0-3--4-0-0-0-0-|----------------------------| |---|x8 |---|
video
Hide picture