Farhat Guitar
Online Private Lessons – Contact Me
Prof. Marcos Farhat
+(54 911) 6577-1480

John Williams| Cavatina
 Estilo:  Clásico    
E|--4----------------|-2----------------|-2----------------|-0-----------------|------------------|-------2----------|
B|-----------2-------|----------2-------|----------0-------|-----------0-------|-5----------------|-------------4----|
G|--------2-----2----|-------2-----2----|-------0-----0----|-------0------0----|----------2-------|-------2--4--2----|
D|-----2-----------2-|----4-----------4-|----0-----------0-|----2------------2-|-------2-----2----|----4-----------4-|
A|--0----------------|-5----------------|------------------|-3-----------------|----4-----------4-|-2----------------|
E|-------------------|------------------|-3----------------|-------------------|-2----------------|------------------|
E|-0----------------|-----------0--4--7-|-11--12-------|--------------|----2--4--2------|--0-----|
B|------------------|--0-----0----------|--9-----------|--4--5--------|-5-----------5---|-----0--|
G|-2-----1--------1-|-----1-------------|--9-----------|--2-----------|-2---------------|--2--1--|
D|----4-----1--2----|-------------------|--9-----------|--2-----------|-4---------------|--4-----|
A|------------------|-------------------|--9-----------|--4-----------|-2---------------|--------|
E|-0----------------|-------------------|--9-----------|--2-----------|-----------------|--0--0--|
video
Hide picture