Farhat Guitar
Online Private Lessons – Contact Me
Prof. Marcos Farhat
+(54 911) 6577-1480

Bon Jovi| You Give Love a Bad Name
 Estilo:  Hard Rock    
e|-------------------------|
b|-------------------------|
d|-5-------------------8-5-|
g|-5-6-8s10-8-8-10-6-8-8-5-| x2
a|-3-6-8s10-8-8-10-6-8-6-3-|
e|---4-6s8--6-6-8--4-6-----|


e|---------|
b|---------|
g|-----8-5-|
d|-6-8-8-5-| x7
a|-6-8-6-3-|
e|-4-6-----|


video
Hide picture