Farhat Guitar
Online Private Lessons – Contact Me
Prof. Marcos Farhat
+(54 911) 6577-1480

Iron Maiden| The Trooper
 Estilo:  Heavy Metal    
E|---------------------------------15b17-15p12-------------|-------| |------------|   
B|-15b17-15b17-15b17r15p12--15~-12-------------------------|-------| |-------12h15|   
G|---------------------------------------------15p14p12----|-------| |14b16-------|   
D|------------------------------------------------------14-|14p12--| |------------|   
A|---------------------------------------------------------|-----14| |------------|   
E|---------------------------------------------------------|-------| |------------|x6
E||-----------------------------------------------------------------|----------------------------|
B||---12h15----12h15----12h15----12h15----12h15----12---------------|-----------------------/17--|
G||14------14--------14-------14-------14-------14----15p14p12------|--14----12~~~---------------|
D||-------------------------------------------------------------14--|----------------------------|
A||-----------------------------------------------------------------|----------------------------|
E||-----------------------------------------------------------------|----------------------------|
E||-----15-19p15-17p15----15-19p15-17p15----15-19p15--|--17p15----15-19p15-17p15----15-19p15-17p15----15h-|
B||--------------------17----------------17-----------|--------17----------------17----------------17-----|
G||---------------------------------------------------|---------------------------------------------------|
D||---------------------------------------------------|---------------------------------------------------|
A||---------------------------------------------------|---------------------------------------------------|
E||---------------------------------------------------|---------------------------------------------------|
E||--19-15h17-15----15-19p15-17p15----15-20b22--|-20b22--20b22--20b22--20b22--20b22--20b22r20|-----19--20--17--19--15--17--|
B||--------------17----------------17-----------|--------------------------------------------|-----------------------------|
G||---------------------------------------------|--------------------------------------------|-----------------------------|
D||---------------------------------------------|--------------------------------------------|-----------------------------|
A||---------------------------------------------|--------------------------------------------|-----------------------------|
E||---------------------------------------------|--------------------------------------------|-----------------------------|
E||--------------------------|--------------12---------12---------|-------------------------------------||
B||--19-20-17~~~-------------|----------12------15b17------15p12--|-------------------------------------||
G||--------------------------|-----/14----------------------------|-14b16r14---p12-14p12----------------||
D||--------------------------|------------------------------------|-------------------------------------||
A||--------------------------|------------------------------------|----------------------14~~~----------||
E||--------------------------|------------------------------------|-------------------------------------||

 

video
Hide picture