Farhat Guitar
Online Private Lessons – Contact Me
Prof. Marcos Farhat
+(54 911) 6577-1480

Pink Floyd| Shine on you crazy diamond
 Estilo:  Rock    
e|-----15----------15-18p15--------------3---------------------------------------------|
B|--15----18b(20)v----------18b(20)vs--3---6-------------------------------------------|
G|-------------------------------------------5b(7)v-5b(7)r5p3-5p3-----15b(17)r15b(19)r-|
D|----------------------------------------------------------------5v-------------------|
A|-------------------------------------------------------------------------------------|
E|-------------------------------------------------------------------------------------|

e|------------------------18---------------------------------------------------|
B|------11-----11—18b(20)----18b(20)v------11-10-------------------------------|
G|--s12----12v-----------------------------------10s12v--15b(17)r15b(19)r—-s12-|
D|-------------------------------------s12-------------------------------------|
A|-----------------------------------------------------------------------------|
E|-----------------------------------------------------------------------------|

e|------------------------------------------------------------3----------------|
B|------11-(15)r13p11-13v-13p11-13-13-13p11-13b(15)r13b(15)v----6--------------|
G|--s12-----------------------------------------------------------5b(7)-5-3s5v-|
D|-----------------------------------------------------------------------------|
A|-----------------------------------------------------------------------------|
E|-----------------------------------------------------------------------------|

e|--------------------------------------------------------15------15------------|
B|--------------------------------------------------------18b(20)----18b(20)v---|
G|--3---3v--5---3s2-------------3-------15b(17)r15b(19)r----------------------0-|
D|----5-------5-----3-------------3-5v------------------------------------------|
A|--------------------3s5vs—-s5-------------------------------------------------|
E|------------------------------------------------------------------------------|

e|----------15-18p15-18b(20)v---18b(20)r18p15-18---------------------10----------|
B|--18b(20)--------------------------------------18b(20)vs-----11-13----13b(16)v-|
G|----------------------------0----------------------------s12-------------------|
D|-------------------------------------------------------------------------------|
A|-------------------------------------------------------------------------------|
E|-------------------------------------------------------------------------------|

e|---------------------------------------------3----------------------------------------|
B|--13b(16)vr--------------------------11vs--3---6--------------------------------------|
G|------------11v-11h12p11----11-12-14-------------5b(7)v-(7)r5p3-5p3----3--------------|
D|-------------------------14-----------------------------------------5b---5------------|
A|---------------------------------------------------------------------------5s3-1-3s5v-|
E|--------------------------------------------------------------------------------------|
video
Hide picture