Farhat Guitar
Online Private Lessons – Contact Me
Prof. Marcos Farhat
+(54 911) 6577-1480

Metallica| Master of Puppets
 Estilo:  Heavy Metal    

E|---------------|-------17------19-------------------|-------------|-15-14----15-14----------------------------------------------|
B|-17---17-19-20-|-19-20---20-19----20-17h20p17-13~~--|-15b17-15b17-|-------12-------12h15p12-----------15------------------------|
G|---------------|------------------------------------|-------------|-----------------------12-14----14b16--14b16r14----12--------|
D|---------------|------------------------------------|-------------|-----------------------------------------------14~~--14---12-|
A|---------------|------------------------------------|-------------|-------------------------------------------------------------|
E|---------------|------------------------------------|-------------|-------------------------------------------------------------|
E|--------------------------------------|-----------------------------------------15-14--|-11h12p11--------12/19----|
B|--------------------------------------|----------------------------------12------------|----------12--10-------17-|
G|---12-14-12-11-----14-12--11h12p11----|----------------------------11-12----12---------|--------------------------|
D|12-------------12------------------10-|----9-10--9-10-12--10-12-14---------------------|--------------------------|
A|--------------------------------------|-12---------------------------------------------|--------------------------|
E|--------------------------------------|------------------------------------------------|--------------------------|
video
Hide picture