Farhat Guitar
Online Private Lessons – Contact Me
Prof. Marcos Farhat
+(54 911) 6577-1480

Queen| Need Your Loving Tonight
 Estilo:     
E|------------|-------------------------------------------------------|-----------------------------| 
B|------------|-------------------------------------------------------|-----------------------------| 
G|------------|-----5---x-5-5--5--5-5---------------------------------|------5---x-5-5--5-5--5-5/---| 
D|-2----------|-5-5-----x-5-5--5--5-5---------------------------------|--5-5-----x-5-5--5-5--5-5/---| 
A|-0--2-0-----|-3-------x-3-3--3--3-3---------------------------------|--3-------x-3-3--3-3--3-3/---| 
E|--------3-0-|------------------------0--3-3-2-0---0-3-3-2-0-3-0-4-0-|-----------------------------|
E|--------------------------|------0p2----2--2------------|-------------------------|--------------------| 
B|--------------------------|----3----3---3--3------------|-------------------------|--------------------| 
G|--------------------------|-2-2------2--2--2----------2-|-----2--------2--------2-|---2-2-2----4--4--4-| 
D|--------------------------|-0----------------4--4-4-/-2-|-2-2-2--2-2-2-2--2-2-2-2-|-2-2-2-2----4--4--4-| 
A|--------------------------|------------------4--4-4-/-0-|-0-0-0--0-0-0-0--0-0-0-0-|-0-0-0-0----2--2--2-|
E|-0--3-2-0--0-3-2-0-3-0-4-0|------------------2--2-2-/---|-------------------------|--------------------|

                            
video
Hide picture