Farhat Guitar
Online Private Lessons – Contact Me
Prof. Marcos Farhat
+(54 911) 6577-1480

The Eagles| Hotel California
 Estilo:     
E|------------------7------7-7------------------------------------|--------------------------7v------------10----------------------|
B|------7-10-------7-------7-7-------7-7--------------------------|--------------------10b12----10-7-10s12----x--12--11--10--9vs17-|
G|-9b11------9b11-----9b11-----9b11-------9b11r9h7--9-7--9b11vs21-|-11b13--9-11-7v---7---------------------------------------------|
D|----------------------------------------------------------------|-x--------------9-----------------------------------------------|
A|----------------------------------------------------------------|-x--------------------------------------------------------------|
E|----------------------------------------------------------------|-x--------------------------------------------------------------|

E|--------------12---------17----------------------15-16--17s19---------------|
B|-------12-15b----15-17b19==pb19b17-15-17-15-17b19-------------17b19-15v--17-|
G|-14b16----------------------------------------------------------------------|
D|----------------------------------------------------------------------------|
A|----------------------------------------------------------------------------|
E|----------------------------------------------------------------------------|

E|-------------17-17----------------------------17-17---------------------------17b19-|
B|-17h15-17b19======pb19r--pb19v--17h15---17b19=======pb19r17--pb19v-pb19r17p15-------|
G|------------------------------------------------------------------------------------|
D|------------------------------------------------------------------------------------|
A|------------------------------------------------------------------------------------|
E|------------------------------------------------------------------------------------|
video
Hide picture