Farhat Guitar
Online Private Lessons – Contact Me
Prof. Marcos Farhat
+(54 911) 6577-1480

The Eagles| Hotel California
 Estilo:     
E|-14h10--14h10--14h10--14h10--14h10----12h9----12h9---12h9--12s18v-|-12h9---12h9---12h9---12h9----12h9----10h7---10h7---10h7-10s16v-|
B|------12-----12-----12-----12------12------11-----11--------------|-----10-----10-----10------10------10------9------9-------------|
G|------------------------------------------------------------------|----------------------------------------------------------------|
D|------------------------------------------------------------------|----------------------------------------------------------------|
A|------------------------------------------------------------------|----------------------------------------------------------------|
E|------------------------------------------------------------------|----------------------------------------------------------------|

E|-10h7---10h7---10h7---10h7---10h7---10h5---10h5---10h5--10s14v-|-7h3---7h3---7h3---7h3--7h3---9h6---9h6---9h6-9s14v-|   |-5-5-5-5--|
B|------8------8------8------8------8------7------7--------------|-----5-----5-----5-----5----5-----7-----7-----------|   |-5-5-5-5--|
G|---------------------------------------------------------------|----------------------------------------------------|   |-5-5-5-5--|
D|---------------------------------------------------------------|----------------------------------------------------|   |-7-7-7-7--|
A|---------------------------------------------------------------|----------------------------------------------------|   |-7-7-7-7--|
E|---------------------------------------------------------------|----------------------------------------------------|x2 |-5-5-5-5--|
video
Hide picture