Farhat Guitar
Online Private Lessons – Contact Me
Prof. Marcos Farhat
+(54 911) 6577-1480

Lynyrd Skynyrd| Sweet Home Alabama
 Estilo:     
 e|-15b17-12-15v-14-----------------------------------------------------------------------|
 B|-------------------15-15v----13--------------------------------------------------------|
 G|--------------------------14----15-14-12-14----12v-12p14----14b16-------12-14-12-14b16-|
 D|-------------------------------------------14-----------14--------12p14----------------|
 A|---------------------------------------------------------------------------------------|
 E|---------------------------------------------------------------------------------------|
 e|-----------------------------------------------------------------|
 B|-----------------------------------------------------------------|
 G|----------12-14----12v-14b16r14-12v----------12------------------|
 D|-12-13-14-------14------------------14s12s14----14-9p10h9--------|
 A|----------------------------------------------------------10-----|
 E|-------------------------------------------------------------10v-|
video
Hide picture