Farhat Guitar
Online Private Lessons – Contact Me
Prof. Marcos Farhat
+(54 911) 6577-1480

Pink Floyd| Money
 Estilo:     
E|------------10-12-14-12b14-10-12--------22b24-22-22-22-------|---------14-----------------------------------------------------|
B|------10-12----------------------12v-19----------------22b24-|------15----15b17b15-----17b21-17-/15----------------------15b--|
G|—9/11--------------------------------------------------------|-/16----------------16v--------------16v--------------/16-------|
D|-------------------------------------------------------------|------------------------------------------14-12-14-16v----------|
A|-------------------------------------------------------------|----------------------------------------------------------------|
E|-------------------------------------------------------------|----------------------------------------------------------------|
E|--------22b24-22-22-22---------------------------------14----14-|--------------22-----------22b24-22-22-22---------------------|
B|-----19----------------22b24v-22b25-22b24-17b19-15v-17-17b19----|-22b24-22b24----22b24v-19----------------22b24-19-22p19----19-|
G|—16v------------------------------------------------------------|--------------------------------------------------------------|
D|----------------------------------------------------------------|--------------------------------------------------------21----|
A|----------------------------------------------------------------|--------------------------------------------------------------|
E|----------------------------------------------------------------|--------------------------------------------------------------|
E|--------------------------------------------------|
B|---------------------10b12-10v-8-7-0-5v-----------|
G|----------------------------------------7-6-5-4---|
D|—19h21p19----19-----------------------------------|
A|----------21----21v-------------------------------|
E|--------------------------------------------------|

                            
video
Hide picture