Farhat Guitar
Online Private Lessons – Contact Me
Prof. Marcos Farhat
+(54 911) 6577-1480

Metallica| Master of Puppets
 Estilo:  Heavy Metal    
E|---------------------------------|----------------------------|
B|---------------------------------|----------------------------|
G|---------------------------------|----------------------------|
D|---------------------------------|------------------5/7--5/7--|
A|------------------5/7---8/7--5/7-|----------------------------|
E|-0-0-0-0-0-0-0-0--3/5-0-6/5--3/5-|-0-0-0-0-0-0-0-0--3/5--3/5--|x4
E|--------------------------------|----------------------------|    |----|
B|--------------------------------|----------------------------|    |----|
G|--------------------------------|----------------------------|    |----|
D|------------------4-----5/4-4---|------------------4----4----|    |-4--|
A|------------------0h2---3/2-0p2-|------------------0h2--0h2--|    |-2--|
E|-2-2-2-2-2-2-2-2----------------|-2-2-2-2-2-2-2-2------------| x2 |----| X8
video
Hide picture