Farhat Guitar
Online Private Lessons – Contact Me
Prof. Marcos Farhat
+(54 911) 6577-1480

Red Hot Chilli Peppers| Californication
 Estilo:     
 E]-3-3-|3-3-|1-1-|0-0-|0-0-|3-3-|1-----1--1-1--1-1--1-1-1-1-|
 B]-1-1-|3-3-|3-3-|1-1-|1-1-|3-3-|3--3--3--3-3--3-3--3-3-3-3-|
 G]-0-0-|0-0-|2-2-|2-2-|0-0-|0-0-|2--2--2--2-2--2-2--2-2-2-2-|
 D]-2-2-|0-0-|0-0-|2-2-|2-2-|0-0-|0--0-----0-0--0-0--0-0-0-0-|
 A]-3-3-|2-2-|----|0-0-|3-3-|2-2-|---------------------------|
 E]-----|3-3-|----|----|----|3-3-|---------------------------|
 E]-3-3-|3-3-|1-1-|0-0-|0-0-|3-3-|1-|
 B]-1-1-|3-3-|3-3-|1-1-|1-1-|3-3-|3-|
 G]-0-0-|0-0-|2-2-|2-2-|0-0-|0-0-|2-|
 D]-2-2-|0-0-|0-0-|2-2-|2-2-|0-0-|0-|
 A]-3-3-|2-2-|----|0-0-|3-3-|2-2-|--|
 E]-----|3-3-|----|----|----|3-3-|--|
video
Hide picture