Farhat Guitar
Online Private Lessons – Contact Me
Prof. Marcos Farhat
+(54 911) 6577-1480

Iron Maiden| Afraid to Shoot Strangers
 Estilo:  Heavy Metal    
E|--15h12----------12--|| x6  |----------------|
B|--------15-12-15-----||     |--15b17---------|
G|---------------------||     |----------------|
D|---------------------||     |----------------|
G|---------------------||     |----------------|
E|---------------------||     |----------------|
     TP       TP          TP
E|--<19>-------------|----------------------------------|---------------------------------------------------------|
B|-----------<19>----|----------------------------------|---------------------------------------------------------|
G|-------------------|---<19>---------------------------|---------------------------------------------------------|
D|-------------------|------------<12>------<19>--<12>--|-- <19>--<12>--<19>--<12>--------------------------------|
A|-------------------|----------------------------------|----------------------------<19>--<12>-------------------|
E|-------------------|----------------------------------|--------------------------------------------19\----------|

E|------------12--------------------------------------------------------------------------|
B|--15b17--------15h14h12----12-----------------------------------------------------------|
G|------------------------15----14h13h12----12--------------------------------------------|
D|---------------------------------------14----14h12----12--------------------------------|
A|---------------------------------------------------14----14-13-12-10-12-10-12-----------|
E|-------------------------------------------------------------------------------12\------|
E|------------------------|--------------------------------||
B|------------------------|--------------------------------||
G|---14b16----rb----14----|----<16>\-----------------------||
D|------------------------|--------------------------------||
A|------------------------|--------------------------------||
E|------------------------|--------------------------------||
video
Hide picture