Farhat Guitar
Online Private Lessons – Contact Me
Prof. Marcos Farhat
+(54 911) 6577-1480

Iron Maiden| Afraid to Shoot Strangers
 Estilo:  Heavy Metal    
 E|-------------------|------------------|----------------------------|
 B|---8-10-10b12-10-8-|--8-10-10b12-10-8-|-7-10b12-10-8-7-8---15b17---|
 G|-9-----------------|------------------|----------------------------|
 D|-------------------|------------------|----------------------------|
 A|-------------------|------------------|----------------------------|
 E|-------------------|------------------|----------------------------|X2
 E|-----------------------|------------------|-------------------------15b17===b17---|
 B|----13-15-15b17-15-13--|--13-15-15b17-15-13-|-12-15b17-15-13-12-13----------------|
 G|-14--------------------|------------------|---------------------------------------|
 D|-----------------------|------------------|---------------------------------------|
 A|-----------------------|------------------|---------------------------------------|
 E|-----------------------|------------------|---------------------------------------|
 E|-------------------|------------------|----------------------------|
 B|---8-10-10b12-10-8-|--8-10-10b12-10-8-|-7-10b12-10-8-7-8---15b17---|
 G|-9-----------------|------------------|----------------------------|
 D|-------------------|------------------|----------------------------|
 A|-------------------|------------------|----------------------------|
 E|-------------------|------------------|----------------------------|
video
Hide picture