Farhat Guitar
Online Private Lessons – Contact Me
Prof. Marcos Farhat
+(54 911) 6577-1480

Andrés Calamaro| Te Quiero
 Estilo:  Pop    
E |-------|-----------|      
B |-------|-----------|     
A |-----0-|----0------|   G D Em C x2 G D
D |---2---|--0--------|
A |--3----|2------0---|
E |-------|---------3-|

E |-------|----------|
B |-------|----------|
A |-----0-|----0-----|
D |---2---|--0-------|
A |--3----|2------0--|
E |-------|----------|
video
Hide picture