Farhat Guitar
Online Private Lessons – Contact Me
Prof. Marcos Farhat
+(54 911) 6577-1480

Red Hot Chilli Peppers| Californication
 Estilo:     
E|-----------------|    |-----------------------1-|
B|-----0-1---------|    |-----5-----------------3-|
G|-------------0-2-|    |-----------4-----2---2-2-|
D|---2-------------| X6 |---5---------------0-----|
A|-0---------3-----|    |-3-------5-----3---------|
E|---------1-------|    |-------3-----1-----------|
E|-----------------|    |-----------------------1-|
B|-----0-1---------|    |-----5-----------------3-|
G|-------------0-2-|    |-----------4-----2---2-2-|
D|---2-------------| X4 |---5---------------0-----|
A|-0---------3-----|    |-3-------5-----3---------|
E|---------1-------|    |-------3-----1-----------|
video
Hide picture