Farhat Guitar
Online Private Lessons – Contact Me
Prof. Marcos Farhat
+(54 911) 6577-1480

John Williams| Cavatina
 Estilo:  Clásico    
E|-12-----------------|-12---------------11p9--|--9--11-12-11--------------|---------------9--7--|--5---------------------|
B|-----------9--------|-----------9------------|---------------11----------|-----------9---------|------------2-----------|
G|--------9----9------|--------9------9--------|------------------11-------|--------8------------|--------2------2--------|
D|-----9---------9----|----9--------------9----|----------------------9----|-----9---------------|-----2-------------2----|
A|--------------------|--9---------------------|---------------------------|---------------------|------------------------|
E|--9-----------------|------------------------|---------------------------|--7------------------|--2---------------------|
E|--------7-------------|----------------------|--------------0---2---|--4-------------------|--5--------------------|
B|-10------------7------|--9-------------------|----------------------|------------2---------|-----------7-----------|
G|-----------8----------|------------8---------|-----------7----------|--------2------2------|--------6-----6--------|
D|--------7------7------|--------9------9------|--------9-------------|-----2------------2---|-----7------------7----|
A|-----9-------------9--|-----7------------7---|-----7----------------|--0-------------------|--5--------------------|
E|--7-------------------|--0-------------------|--0-------------------|----------------------|-----------------------|
E|--6------------------|--7----------------|--7------------------|-12----------------|-12-|
B|----------7----------|-----0----7-----0--|-----0-----7------0--|-------0------0----|----|
G|-------6-----6-------|-------8-----8-----|--------7------7-----|----0-----9------0-|----|
D|----8-----------8----|-------------------|--0------------------|-------------------|----|
A|--7------------------|--6----------------|---------------------|-------------------|----|
E|---------------------|-------------------|---------------------|--8----------------|-7--|
video
Hide picture