Farhat Guitar
Online Private Lessons – Contact Me
Prof. Marcos Farhat
+(54 911) 6577-1480

BEATLES| Twist and Shout
 Estilo:  Pop    
|-------------2-2---------------------2-2---------------------------|
|-5-5-5-5-5-5-3-3-3-3-5-5-5-5-5-5-5-5-3-3-3-3-5-5-5-5-5-5-5-5-5-5-5-|
|-6-6-6-6-6-6-2-2-4-4-6-6-6-6-6-6-6-6-2-2-4-4-6-6-6-6-6-6-6-6-6-6-6-|
|-7-7-7-7-7-7-0-0-5-5-7-7-7-7-7-7-7-7-0-0-5-5-7-7-7-7-7-7-7-7-7-7-7-|
|-7-7-7-7-7-7-----5-5-7-7-7-7-7-7-7-7-----5-5-7-7-7-7-7-7-7-7-7-7-7-|
|-------------------------------------------------------------------|
|-------5---5---|    |--------------5---|
|-------5-5-5-5-|    |--------------5---|
|-6-6-6-6-6-6-6-|    |--------------5---|
|-7-7-7-7-7-7-7-| x3 |--------------5---|
|-7-7-7-7-7-7-7-|    |--------------5---|
|-5-5-5---5---5-|    |-5-6-7-8-9-10-5---|
video
Hide picture