Farhat Guitar
Online Private Lessons – Contact Me
Prof. Marcos Farhat
+(54 911) 6577-1480

Pink Floyd| Money
 Estilo:     
E|------------------------------10--------------12b14--------|--------------------7----------10-12-14b12-------10v-12b14v-10-12-|
B|--------10b12-7h10--------/12----12-12--12-12-------12-12\-|------------------7---10-10/12-------------12-12------------------|
G|—9b11-7------------9b11-7----------------------------------|-9b11-7-9----9b11-------------------------------------------------|
D|-----------------------------------------------------------|----------9v------------------------------------------------------|
A|-----------------------------------------------------------|------------------------------------------------------------------|
E|-----------------------------------------------------------|------------------------------------------------------------------|
E|-----------------------------------------------7----------------|-10-12-14b12p10-----14b16-14-12--------------------------------|
B|-12-10-------------------------------------------10-10b12-12-12-|----------------12v-------------15-12-10---7-----10b12-10-8-7-5|
G|-------9-7-------------------------7-7----9b11------------------|-----------------------------------------9-9b11v---------------|
D|-----------9-7-------------7-9p7-------9v-----------------------|---------------------------------------------------------------|
A|---------------7------/7-9-------9------------------------------|---------------------------------------------------------------|
E|-----------------10-7-------------------------------------------|---------------------------------------------------------------|

 

E|----------------------------------------------|
B|------------7b----9b-------10-10-10-----------|
G|--7-6-5-4v—-7b----9b—------11-11-11—9b11------|
D|---------------9v-----9v----------------------|
A|----------------------------------------------|
E|----------------------------------------------|
video
Hide picture