Farhat Guitar
Online Private Lessons – Contact Me
Prof. Marcos Farhat
+(54 911) 6577-1480

Nacha Pop| La Chica de Ayer
 Estilo:  Pop    
E|-------------2-2-|---------------7-8-7--------|---------------------------|-7----------------------------| 
B|-----------3-3-3-|-7--8--12-8--7-------8—-8-8-|---------------------------|-8----------------------------| 
G|-----0-----2-----|-7--9--12-9--7--------------|---------------------------|---7h9-7h9--7—7h9--7---7--7s9-| 
D|---2-------------|----------------------------|---------------------------|------------------------------| 
A|-3----3--2-------|----------------------------|-2s5--5-5--3-2----2s3--3-3-|------------------------------|
E|-----------------|----------------------------|---------------3-----------|------------------------------| 

E|--------------------------------10--|--7----------|----------------|
B|-----8---10b12r10p8-10----10s12-----|--8-8--------|----------------| 
G|--9--------------------9------------|------7--5-4-|-----------7--7-|
D|------------------------------------|---------7-5-|-----5—7s9------| 
A|------------------------------------|-------------|-5s7------------| 
E|------------------------------------|-------------|----------------|

E|--------------10--10-|------12---15-12----12-----------------------------------|-7----------7-----------------------|
B|-----8—10s12----12---|-10/12--12-------15----15--12--12------------------------|-8----------8-----------10b12—b12—8-| 
G|-7-9-----------------|-----------------------------14--—14b16—14p12-14p12---12-|---9—7p9--7---7p9-7p9-7-------------| 
D|---------------------|---------------------------------------------------14----|------------------------------------| 
A|---------------------|---------------------------------------------------------|------------------------------------| 
E|---------------------|---------------------------------------------------------|------------------------------------|
video
Hide picture