Farhat Guitar
Online Private Lessons – Contact Me
Prof. Marcos Farhat
+(54 911) 6577-1480

Pink Floyd| In The Flesh
 Estilo:     
E|------------------------------------------------------------------------------------------|
B|------------------------------------------------------------------------------------------|
G|------------------------------------------------------------------------------------------|
D|---2------------------------------------------2-------------------------------------------|
A|---0—-2b4—-2v--0-----------x—-x—-4b5—-4v—-2v--0--2b4—-2v—-0-------------x—-x—-4b5—-4v—-2v-|
E|-/----------------3b4—-2v------------------------------------3b4—-2v----------------------|

E|----------------------------------------------------------------------------|
B|----------------------------------------------------------------------------|
G|--------------------------------------------------------------------------2-|
D|-2------------------------------------------------------------------------2-|
A|-0--2b4—-2v—-0—-1—-2v—-x—-x--4b5—-4v—-2—-3—-4v--—-5b7—-5v--4------------2-0-|
E|--------------------------------------------------------------s12--12s--0---|
video
Hide picture