Farhat Guitar
Online Private Lessons – Contact Me
Prof. Marcos Farhat
+(54 911) 6577-1480

Metallica| Seek and Destroy
 Estilo:  Heavy Metal    
E|----------------|----------------|----------------|------------------| 
B|----------------|----------------|----------------|------------------|
G|-5-------5-7-5--|-5-------5-7-5--|-5-------5-7-5--|-7-5--------------| 
D|-5-------5-7-5--|-5-------5-7-5--|-5-------5-7-5--|-----7-6-5--------| 
A|---0-0-0--------|---0-0-0--------|---0-0-0--------|-----------7-6-5--| 
E|----------------|----------------|----------------|------------------|
E|----------------|----------------|----------------| |------------------|
B|----------------|----------------|----------------| |------------------|
G|-5-------5-7-5--|-5-------5-7-5--|-5-------5-7-5--| |-9-7---7----------| 
D|-5-------5-7-5--|-5-------5-7-5--|-5-------5-7-5--| |-----9---9-8-7s5--|
A|---0-0-0--------|---0-0-0--------|---0-0-0--------| |------------------|
E|----------------|----------------|----------------| |------------------|x2
video
Hide picture