Farhat Guitar
Online Private Lessons – Contact Me
Prof. Marcos Farhat
+(54 911) 6577-1480

Soda Stereo| Primavera 0
 Estilo:  Pop    
E|---------------------------------------------------------------------|
B|---------------------------------------------------------------------|
G|----------------------------------------------10v-12v-12v-12v-12v/17-|
D|----------------------------------10v-12v-14v------------------------|
A|-----------------5v—7v—8v-10v-12v------------------------------------|
E|--5v—6v—8v—6v—8v-----------------------------------------------------|
E|------------------------------------------------------------|
B|-------------------------18/(20)\(18)-18/(20)\(18)----------|
G|--17v-17v-17v-17v-17v-15---------------------------15-17v---|
D|------------------------------------------------------------|
A|------------------------------------------------------------|
E|------------------------------------------------------------|
E|------------------------------------------------------18-20---------|
B|------------------18/(20)\(18)---------------16-18-20---------------|
G|--17/(19)\(17)-15--------------15-17v--15-17------------------------|
D|--------------------------------------------------------------------|
A|--------------------------------------------------------------------|
E|--------------------------------------------------------------------|
video
Hide picture