Farhat Guitar
Online Private Lessons – Contact Me
Prof. Marcos Farhat
+(54 911) 6577-1480

The Eagles| Hotel California
 Estilo:     
E|----------------------------------------------------------------------------|--------------------------|
B|--17b19--17b--17b--17b--17b--17b--17b--17b--17b--17b--17h15-----17--15b-----|--------------------------|
G|--x---------------------------------------------------------16----------16v-|-14--------------------14v|
D|--x-------------------------------------------------------------------------|-----16s14--12--14s16-----|
A|--x-------------------------------------------------------------------------|--------------------------|
E|----------------------------------------------------------------------------|--------------------------|
E|--------7-----------------|-----------------------------------------------------|--------------------------------|
B|----------7--10---7-------|------------------------------7-----10h7-------------|----------7--8--7v--11--12--14--|
G|-7-9b10---------9---7--9--|-----7---------------------------7--------9b10r9--7v-|-7--9--9------------------------|
D|--------------------------|--9-------7---------------7v-------------------------|--------------------------------|
A|--------------------------|-------9-----9s7--5--7s9-----------------------------|--------------------------------|
E|--------------------------|-----------------------------------------------------|--------------------------------|
video
Hide picture