Farhat Guitar
Online Private Lessons – Contact Me
Prof. Marcos Farhat
+(54 911) 6577-1480

Red Hot Chilli Peppers| Road Trippin’
 Estilo:     
E|-----------|------------|------------|-----------| |-----------|------------|------------|-5-------5--|
B|-8-------8-|------------|--5-------5-|-7-------7-| |-8-------8-|------------|--5-------5-|------4-----| 
G|-----7-----|-6--------6-|------5-----|-----5-----| |-----7-----|-6--------6-|------5-----|------------|
D|---9-------|------5-----|----5-------|---7-------| |---9-------|------5-----|----5-------|-4--4--4----|
A|-7-----7---|----7-------|--3-----3---|-5-----5---| |-7-----7---|----7-------|--3-----3---|------------| 
E|-----------|-5------5---|------------|-----------| |-----------|-5------5---|------------|------------|
E|-5--------5---------5----14----11----8----5----2---| 
B|------4---4----4----4----13----10----7----4----1---| 
G|---------------------------------------------------| 
D|-4--4--4-----4--4-----4/-13--10----7---4-----1---1-| 
A|---------------------------------------------------| 
E|---------------------------------------------------|

                            
video
Hide picture