Farhat Guitar
Online Private Lessons – Contact Me
Prof. Marcos Farhat
+(54 911) 6577-1480

Led Zeppelin| Stairway to Heaven
 Estilo:     
E|----------------------------------------|------------------15b17--15-13----| ||------------------||  
B|-------------------------------------13-|-15b17-15-13-15-13------------15b-| ||-15b17r15p13---13-||      
G|---------10-----------------12-12-14----|----------------------------------| ||-------------14---||  
D|------10---12p10---10-12/14-------------|----------------------------------| ||------------------||  
A|-10/12----------12----------------------|----------------------------------| ||------------------||      
E|----------------------------------------|----------------------------------| ||------------------||x11
E|-15b17-12-15-12------------------------------15-------------|
B|---------------15-13----13-15-13----13-15b17===--17r15p13---| 
G|---------------------14----------14----------------------14~| 
D|------------------------------------------------------------| 
A|------------------------------------------------------------| 
E|------------------------------------------------------------|
video
Hide picture