Farhat Guitar
Online Private Lessons – Contact Me
Prof. Marcos Farhat
+(54 911) 6577-1480

Pink Floyd| Money
 Estilo:     
E|-7--7--7-7-7-10--7---------------------------------------------|-------------------------------------|----10----10-12b14-12b14-|
B|-7--7--7-7-7-----7-----------------------------------7----7----|-------------------------------------|-/12----12---------------|
G|-------------------9b11-7h9----7-7-7-7-7-7-7---9b11v-9b11-9b11-|-9b11b9p7-9b12-9b11b9p7p0-7b9b7b9b7--|--------11---------------|
D|----------------------------9v-7-7-7-7-7-7-7-9-----------------|------------------------------------9|-------------------------|
A|-------------------------------7-7-7-7-7-7-7-9-----------------|-------------------------------------|-------------------------|
E|---------------------------------------------------------------|-------------------------------------|-------------------------|
E|--x-12p10-------------------------------------------------------|--------------|
B|----------10-10-10---------------------------------------7b-----|--9b----7b----|
G|-------------------9b11v-9b11b9b11v----------------------7b-----|--9b----7b----|
D|------------------------------------------------------------9v--|-----9v---9v--|
A|-----------------------------------/14-12-10-9-7-5-4-3-2--------|--------------|
E|----------------------------------------------------------------|--------------|

                            
video
Hide picture