Farhat Guitar
Online Private Lessons – Contact Me
Prof. Marcos Farhat
+(54 911) 6577-1480

Iron Maiden| Afraid to Shoot Strangers
 Estilo:  Heavy Metal    
E|---------------|| x4 |---------------|| x4 |---------------|| x4 |---------------|| x4  
B|---------------||    |---------------||    |---------------||    |---------------||    
G|---------------||    |---------------||    |------6---6----||    |------4---4----||    
D|------2---2----||    |------5---5----||    |----6---6---6--||    |----4---4---4--||    
A|----2---2---2--||    |----5---5---5--||    |--4------------||    |--2------------||    
E|--0------------||    |--3------------||    |---------------||    |---------------||    
E|---------------|| x4 |---------------|| x4 |---------------|| x4 |---------------|| x2 |---------------|| x2
B|---------------||    |---------------||    |---------------||    |---------------||    |---------------||
G|---------------||    |---------------||    |------6---6----||    |------4---4----||    |---------------||
D|------2---2----||    |------5---5----||    |----6---6---6--||    |----4---4---4--||    |------6---6----||
A|----2---2---2--||    |----5---5---5--||    |--4------------||    |--2------------||    |----6---6---6--||
E|--0------------||    |--3------------||    |---------------||    |---------------||    |--4------------|| 
video
Hide picture