Farhat Guitar
Online Private Lessons – Contact Me
Prof. Marcos Farhat
+(54 911) 6577-1480

The Doors| Roadhouse Blues
 Estilo:  Blues    
E|-------------------------------------------------------------|---------------------------------0--0--------0--0--------0—-0-|
B|-----5-----x--5--5-------x--5--5-------x--5--5-------x--5--5-|------------------------------x--3--3-----x--3—-3-----x--3—-3-|
G|--7--7--0--x--7--7-------x--7--7-------x--7--7-------x--7--7-|----------0-------------------x--1--1-----x--1--1-----x--1—-1-|
D|--6--6--0--x--6--6-------x--6--6-------x--6--6-------x--6--6-|------0---0-2-0p2—-2h0---0----x--2--2-----x--2--2-----x--2—-2-|
A|--7--7--------7--7—-5s7—----7--7—-5s7-----7--7—-5s7-----7--7-|--0h2---2--------------2---2----------5s7---------5s7---------|
E|-------------------------------------------------------------|--------------------------------------------------------------|

E|------------------------------------------------------|-----------------------------------------------------|
B|------------------------------------------------------|-----------------------------------------------------|
G|------------0-----------------------------------------|------------------------------------------0----------|
D|------------0--2—-0p2—-2h0-----0-----0-----0-----0----|-0p2—-2—-0-—0-------0-------------------------2—-0p2-|
A|—-0p1—-0p2------------------2-----2-----2-----2-----2-|-----------------2------------------0p1p2------------|
E|------------------------------------------------------|-----------------------3v--0--0--0-------------------|
video
Hide picture