Farhat Guitar
Online Private Lessons – Contact Me
Prof. Marcos Farhat
+(54 911) 6577-1480

Mana| Vivir Sin Aire
 Estilo:     
E|-3-------5-|-2-----5---|-0----3---|-2------3-----|-3-------5-|-2-----5----|-0----3---|-3-3--2-2--0-0------|
B|-3---------|-3---3--3--|-1---1-1--|-3--3s5---5\3-|-3---------|-3---3---3--|-1---1--1-|-3-3--3-3--1-1--3-3-|
G|---0---0---|-2--2----0-|-0--0---0-|-2------------|---0---0---|-2--2-----0-|-0--0-----|----------------4-4-|
D|-----------|-----------|----------|-0------------|-----------|------------|----------|--------------------|
A|----0h2----|-2---------|-3--------|--------------|----0h2----|-2----------|-3--------|--------------------|
E|-3---------|-----------|----------|--------------|-3---------|------------|----------|--------------------|
 
E|--3---------5-|-2-----5----|--0----3-----|-2------3-----|-3---------5-|--2-----5----|--0----3----|--2--|
B|--3-----------|-3---3---3--|--1---1--1---|-3--3s5---5\3-|-3-----------|--3---3---3--|--1---1--1--|--3--|
G|----0-----0---|-2--2-----0-|--0--0----0--|-2------------|---0-----0---|--2--2-----0-|--0--0----0-|--2--|
D|--------------|------------|-------------|-0------------|-------------|-------------|------------|--0--|
A|------0h2-----|-2----------|--3----------|--------------|-----0h2-----|--2----------|--3---------|-----|
E|--3-----------|------------|-------------|--------------|-3-----------|-------------|------------|-----|
video
Hide picture