Farhat Guitar
Online Private Lessons – Contact Me
Prof. Marcos Farhat
+(54 911) 6577-1480

Queen| We are the Champions
 Estilo:     
E--------------------------|----------5-5-5-|-------------5---------------------------5------------|
B----------1-3—-4b-4b-4b-5-|--1-1-3-5-5-6-6-|-13bv-13p10-13bv-13p10---------------3-5-5-6-6--------|
G—8s-7s-5s-2-3--3--3--3--5-|--2-2-3-5-5-7-7-|-----------------------12bp10----10v-3-5-5-7-7--------|
D—8s-7s-5s-3-3--3--3--3--5-|--3-3-5-7-7-7-7-|------------------------------12-----5-7-7-8-8--------|
A—6s-5s-3s---1--1--1--1--3-|--3-3-5-7-7-----|-------------------------------------5-7-7-8-8--------|
E--------------------------|----------------|-----------------------------------------------5-3-2v-|

E-------------------|------------1----------------------------------|
B-------3-3-5-5-6-6-|--------------1-------3-6p3-----6p4---6v-8--8--|
G-2---0-3-3-5-5-7-7-|----------2-----2---3-------3-5-----5-7v-9--9--|
D-1-0---5-5-5-5-8-8-|------5v--3-------5-----------6-------8v-10-10-|
A-------5-5-3-3-8-8-|-4-7v------------------------------------10-10-|
E-------------------|-----------------------------------------------|
video
Hide picture