Farhat Guitar
Online Private Lessons – Contact Me
Prof. Marcos Farhat
+(54 911) 6577-1480

Red Hot Chilli Peppers| Under the Bridge
 Estilo:  Grunge, Rock    
E|-----------------------------------------------5h7p5----------|---------------------------------------------5-----|
B|-9--9--7--7---------------------9------9--4--5-------5--------|-9--9--7--7---------------------9------9--5----5---|
G|-9--9--8--8-----8h9p8---8-------9------9--4--6----------------|-9--9--8--8-----8h9p8---8-------9------9--6------6-|
D|-9--9--9-----9--------9---9s11-----11-----6--7----------------|-9--9--9-----9--------9---9s11-----11-----7--------|
A|-7--7--9-----9------------9s11-----11-----6--7----------------|-7--7--9-----9------------9s11-----11-----7--------|
E|--------------------------------------------------------------|---------------------------------------------------|
E|-----------------------------------------------5h7p5----------|----------------------------------------5--------|
B|-9--9--7--7---------------------9------9--4--5-------5--------|-9--9--7--7---------------------9----5----5---9--|
G|-9--9--8--8-----8h9p8---8-------9------9--4--6----------------|-9--9--8--8-----8h9p8---8-------9----6------6-8--|
D|-9--9--9-----9--------9---9s11-----11-----6--7----------------|-9--9--9-----9--------9---9s11-------7--------9--|
A|-7--7--9-----9------------9s11-----11-----6--7----------------|-7--7--9-----9------------9s11-------7--------7--|
E|--------------------------------------------------------------|-------------------------------------------------|
video
Hide picture