Farhat Guitar
Online Private Lessons – Contact Me
Prof. Marcos Farhat
+(54 911) 6577-1480

Soda Stereo| En El Septimo Dia
 Estilo:     
E|---------------------0-------------------|
B|-3-3-3-3-3-3-3-2-0---0-------------------|
G|-4-4-4-4-4-4-4-2-0-1-1---1-0-2p0---------|
D|-4-4-4-4-4-4-4-2-0-2---2-2-------2p0-----|
A|-------------------2---2-------------2p0-|
E|-------------------0---0-----------------|

E|---------------------0-----------------|
B|-3-3-3-3-3-3-3-2-0---0---0-3p0-2p0-----|
G|-4-4-4-4-4-4-4-2-0-1-1-------------2p0-|
D|-4-4-4-4-4-4-4-2-0-2---2---------------|
A|-------------------2---2---------------|
E|-------------------0---0---------------|
 
video
Hide picture