Farhat Guitar
Online Private Lessons – Contact Me
Prof. Marcos Farhat
+(54 911) 6577-1480

Metallica| One
 Estilo:  Heavy Metal    
E|-----------------------------------------------------|--------------------------------------------------| 
B|-----------------------------------------------------|--------------------------------------------------| 
G|--------------------------------------------------0--|--------------------------------------------------| 
D|-----4-----0-----4-----0-----4-----0-----4-----0-----|----4------0-----4-----0-----4-----0--------------|
A|--2-----2-----------------2-----2--------------------|-2-----2------0-----0--------------------2-----2--|X3
E|--------------3-----3-----------------3-----3--------|--------------------------3-----3-----0-----2-----|

E|----------------| 
B|----------------| 
G|----------------| 
D|----------------| 
A|-----2--2h4--2--| 
E|--0-------------|
video
Hide picture