Farhat Guitar
Online Private Lessons – Contact Me
Prof. Marcos Farhat
+(54 911) 6577-1480

Jimi Hendrix Experience| Foxy Lady
 Estilo:     
E|--------------------------------------------------------------------------------|
B|----2-x-x-2-2-2-------------------------------2-x-x-2---2-----------------------|
G|----3-x-x-3-3-3---1---1-x-x-------------------3-x-x-3---3---1---1---------------|
D|--4-4-x-x-4-4-4---2---2-x-x-----4-----2h4-----4-x-x-4-4-4---2---2---------------|
A|--x-x-----x-x-x---2---2-x-x-4-6---2h4---------x-----x-x-x---2---2-----2-2-2-3-4-|
E|2-2-2-----2-2-2-2-0-0-0-------------------2-2-2-----2-2-2-2-0-0-0-0-0-----------|

E|---5-----5---5---------------------------------------------------------|
B|---5-----5---5---------------------------------------------------------|
G|---x-----x---x---1---1-x-x---------------16b18-14v-16b18-16b18-14v-----|
D|---4-----4---4---2---2-x-x-----4-6p4---4---------------------------16s-|
A|-----------------2---2-x-x-4s6-------6-x-------------------------------|
E|-2---2-2---2---2-0-0-0-----------------2-------------------------------|
video
Hide picture