Farhat Guitar
Online Private Lessons – Contact Me
Prof. Marcos Farhat
+(54 911) 6577-1480

Guns and Roses| Sweet Child o’ Mine
 Estilo:  Hard Rock    
Eb|-------------|   |------------|   |-------------------------------10-------| 
Bb|-------------|   |------------|   |----------------------------------------|
Ab|-14-12-11----|   |-14-12------|   |-14-12-14-12-11b12r11----11b12====12r11-|
Db|-------------|   |-------14---|   |----------------------12----------------|
Ab|-------------|   |------------|   |----------------------------------------| 
Eb|-------------|X2 |------------|X2 |----------------------------------------| 

Eb|-------------||----------||-------------------------------------|--------------------------------------------------17-|  
Bb|-------------||----------||-------15-15\13—15/17-17-17/15-15/13-|-12b13r12--------------------------15-15b17—17b19----|
Gb|-14-12-11----||-14-12-11-||-14b16-------------------------------|----------12---14b16r14p12--14b16--------------------|
Db|-------------||----------||-------------------------------------|------------12---------------------------------------|
Ab|-------------||----------||-------------------------------------|-----------------------------------------------------|
Eb|-------------||----------||-------------------------------------|-----------------------------------------------------|
video
Hide picture