Farhat Guitar
Online Private Lessons – Contact Me
Prof. Marcos Farhat
+(54 911) 6577-1480

Emerson, Lake & Palmer| The Sage
 Estilo:  Acústico    
E|--------------------------|--------------------|---------------------------|-----------|
B|-12----------9—10h12------|-10p9---------------|--0-------0-------0--------|-0---------|
G|-11------11---------------|-9-----------9------|-11------12-------9--------|11---------|
D|--------------------------|--------------------|---------------------------|-----------|
A|--------------------------|--------------------|---------------------------|-----------|
E|-11-----------------------|-0------------------|-11------12-------9--------|11---------|
E|-------------------|----------------|-----------------|-----|
B|-----5-----5----5--|---(0)---0----0-|-----3----3----3-|-0---|
G|---4-----4----4----|--5-----5---5---|---2----2----2---|-0---|
D|-------------------|----------------|-----------------|-----|
A|-------------------|----------------|-----------------|-----|
E|-4-----4----4------|-5----5----5----|-2-----2----2----|-3---|
E|------------------|---------------|-----------------|-----|
B|-----5----5-----5-|----0---0----0-|-----3----3----3-|-5---|
G|---4----4-----4---|--5----5---5---|---2----2----2---|-4---|
D|------------------|---------------|-----------------|-----|
A|------------------|---------------|-----------------|-----|
E|-4----4-----4-----|-5---5----5----|-2-----2----2----|-4---|
video
Hide picture