Farhat Guitar
Online Private Lessons – Contact Me
Prof. Marcos Farhat
+(54 911) 6577-1480

Led Zeppelin| Living Loving Maid (She’s Just a Woman)
 Estilo:     
E|-----------------------------------------------------------------|------------------------------------|
B|-------------------------------------17b19-17b19--17b19-17-15-14-|------------------------------------| 
G|------14--14-16-16b18==r16b18r16-14-~----------------------------|------14--14-16--16b18r16b18r16p14--| 
D|-14/16--16-------------------------------------------------------|-14/16--16--------------------------| 
A|-----------------------------------------------------------------|------------------------------------| 
E|-----------------------------------------------------------------|------------------------------------|
E|----------------------------------------------------------| 
B|-x-5-x-6-x-7-x-8-x-9-x-10-x-11-x-12-x-13--14-14-12-13b15--| 
G|----------------------------------------------------------| 
D|----------------------------------------------------------| 
A|----------------------------------------------------------| 
E|----------------------------------------------------------|
video
Hide picture