Farhat Guitar
Online Private Lessons – Contact Me
Prof. Marcos Farhat
+(54 911) 6577-1480

Mana| En el Muelle de San Blas
 Estilo:     
E|-------------0----------|----------0----------|-------------0----------|-------------0----------|
B|-------3-----------3----|-------2--------2----|-------3-----------3----|-------2-----------2----|
G|----2-----2-----2-----2-|----2--------2-----2-|----2-----2-----2-----2-|----2-----2-----2-----2-|
D|-0----------------------|---------------------|------------------------|------------------------|
A|------------------------|-4-------------------|-2----------------------|-4----------------------|
E|------------------------|---------------------|------------------------|------------------------|

E|-------------0----------|----------0----------|-------------3-----2----|-------------------0----|
B|-------3-----------3----|-------2--------2----|-------3--------------3-|-------3-----2--------3-|
G|----2-----2-----2-----2-|----2--------2-----2-|----0-----0-----0-------|----2-----2-----2-----2-|
D|-0----------------------|---------------------|------------------------|----------------------0-|
A|------------------------|-4-------------------|------------------------|-0----------------------|
E|------------------------|---------------------|-3----------------------|------------------------|
video
Hide picture