Farhat Guitar
Online Private Lessons – Contact Me
Prof. Marcos Farhat
+(54 911) 6577-1480

Metallica| One
 Estilo:  Heavy Metal    
|---------------------|-----------------|   |----------------------|------------------|-----------------------|-----------------------|
|---------------------|-----------------|   |----------------------|------------------|-----------------------|-----------------------|
|---------------------|-----------------|   |----------------------|------------------|-----------------------|-----------------------|
|-------------2-------|-------2-------3-|   |----------------------|------------------|-----------------------|-----------------------|
|-------------2-------|-------2-------3-|   |----------------------|------------------|-----------------------|-----------------------|
|-0-0-0-0-0-0---0-0-0-|-0-0-0---0-0-0---|x4 |-0-0-0-0-0-0-0--0-0-0-|-0-0-0-0--0-0-0-0-|-0-0-0-0-0-0-0---0-0-0-|-0-0-0-0---0-0-0-0-0-0-|

|--------------------|-----------------|   |---------------------------------|--------------------------------|
|--------------------|-----------------|   |---------------------------------|--------------------------------|
|--------------------|-----------------|   |---------------------------------|--------------------------------|
|-------------2------|-------2-------3-|   |---------------------------------|--------------------------------|
|-------------2------|-------2-------3-|   |---------------------------------|--------------------------------| 
|-0-0-0-0-0-0--0-0-0-|-0-0-0---0-0-0---|x4 |--0--0--0--0--0--0--0----0--0--0-|--0--0--0--0---0--0--0--0--0--0-|

|------------------------------|------------------------------| |------------------------------|------------------------------|
|------------------------------|------------------------------| |------------------------------|------------------------------|
|------------------------------|------------------------------| |------------------------------|------------------------------|
|--------------------2----2----|--------------------2----2----| |--------------------2----3----|--------------------5----5----|
|--------------------2----2----|--------------------2----2----| |--------------------2----3----|--------------------5----5----|
|--0--0--0--0--0--0--0----0----|--0--0--0--0--0--0--0----0----| |--0--0--0--0--0--0------------|--3--3--3--3--3--3--3----3----|x2

|------------------------------|------------------------------| |------------------------------|------------------------------|
|------------------------------|------------------------------| |------------------------------|------------------------------|
|------------------------------|------------------------------| |------------------------------|------------------------------|
|--------------------5----5----|--------------------5----5----| |--------------------5----6----|--------------------3----3----|
|--------------------5----5----|--------------------5----5----| |--------------------5----6----|--------------------3----3----|
|--3--3--3--3--3--3--3----3----|--3--3--3--3--3--3--3----3----| |--3--3--3--3--3--3------------|--1--1--1--1--1--1--1----1----|x2

|------------------------|------------------------| |------------------------------|------------------------------|
|------------------------|------------------------| |------------------------------|------------------------------|
|------------------------|------------------------| |------------------------------|------------------------------|
|--------5----------5----|--------5----------5----| |------------------------------|------------------------------|
|--------5----------5----|--------5----------5----| |--------------------3----3----|--------------------3----3----|
|--3--3--3----3--3--3----|--3--3--3----3--3--3----| |--1--1--1--1--1--1--1----1----|--1--1--1--1--1--1--1----1----|x2
video
Hide picture