Farhat Guitar
Online Private Lessons – Contact Me
Prof. Marcos Farhat
+(54 911) 6577-1480

Lynyrd Skynyrd| Simple Man
 Estilo:     
E|---------------------------------|---------------------|---------------------------------------------------|
B|------8----8-------8--8----------|-------------13v-----|------20-----20------------------------------------|
G|-5-7--7b9v-7b9r7p5-7v-7b9r7p5----|----12-14-14-----14v-|17-19-19b21v====21r19p17-19b21r19v--19b21r19p17----|
D|------------------------------7v-|s14------------------|------------------------------------------------19-|
A|---------------------------------|---------------------|---------------------------------------------------|
E|---------------------------------|---------------------|---------------------------------------------------|
E|-----------17-20b21b22b23-20b21-17-----------------------|-----17-----------17-----------17--------------17----------|
B|-20b22v-17-------------------------17-20b22v-22r20-17-20v|--------20b22--------20b22---------20b22----------17-20b22-|
G|---------------------------------------------------------|-s19----------s18----------s19-----------19b21-------------|
D|---------------------------------------------------------|-----------------------------------------------------------|
A|---------------------------------------------------------|-----------------------------------------------------------|
E|---------------------------------------------------------|-----------------------------------------------------------|
E|--------------------------------5---------|----------------------|------------------15-----------15-------------15b17v-5----------|
B|-------------8--------------------8-8b10v-|----------------------|-13-15-15b17v-s12----15b17r15v----15b17r15p13--------5----------|
G|5-7-7b9r7b9====9r7p5-7b9r7v-7b9-----------|---5-7-7s9-9s12-12s14-|------------------------------------------------------7b9r7p5---|
D|------------------------------------------|s7--------------------|--------------------------------------------------------------7v|
A|------------------------------------------|----------------------|----------------------------------------------------------------|
E|------------------------------------------|----------------------|----------------------------------------------------------------|
video
Hide picture