Farhat Guitar
Online Private Lessons – Contact Me
Prof. Marcos Farhat
+(54 911) 6577-1480

Soda Stereo| En El Septimo Dia
 Estilo:     
E|-7--7—-x-x-7-7--7-7--x-x-7--7—-x-x-7-7--7-7-7-x-x--|
B|-10-10-x-x-9-10-9-10-x-x-10-10-x-x-9-10-9-7-7-x-x--|
G|-8--8—-x-x-8-8--8-8--x-x-8--8—-x-x-8-8--8-8-8-x-x--|
D|-7--7—-x-x-7-7--7-7--x-x-7--7—-x-x-7-7--7-7-7-x-x--|   x4
A|-9--9--x-x-9-9--9-9--x-x-9--9--x-x-9-9--9-9-9-x-x--|
E|---------------------------------------------------|

E|-7--7--x-x-7-7--7-7--x-|
B|-10-10-x-x-9-10-9-10-x-|
G|-7--7—-x-x-7-7--7-7--x-|
D|-7--7—-x-x-7-7--7-7--x-|
A|-----------------------|
E|-----------------------|

E|-7--7—-x-x-7-7--7-7--x-x-7--7—-x-x-7-7--7-7-7-x-x--|
B|-10-10-x-x-9-10-9-10-x-x-10-10-x-x-9-10-9-7-7-x-x--|
G|-8--8—-x-x-8-8--8-8--x-x-8--8—-x-x-8-8--8-8-8-x-x--|
D|-7--7—-x-x-7-7--7-7--x-x-7--7—-x-x-7-7--7-7-7-x-x--|   x6
A|-9--9--x-x-9-9--9-9--x-x-9--9--x-x-9-9--9-9-9-x-x--|
E|---------------------------------------------------|

E|-7--7--x-x-7-7--7-7--x-|
B|-10-10-x-x-9-10-9-10-x-|
G|-7--7—-x-x-7-7--7-7--x-|
D|-7--7—-x-x-7-7--7-7--x-|
A|-----------------------|
E|-----------------------|

E|-7--7—-x-x-7-7--7-7--x-x-7--7—-x-x-7-7--7-7-7-x-x--|
B|-10-10-x-x-9-10-9-10-x-x-10-10-x-x-9-10-9-7-7-x-x--|
G|-8--8—-x-x-8-8--8-8--x-x-8--8—-x-x-8-8--8-8-8-x-x--|
D|-7--7—-x-x-7-7--7-7--x-x-7--7—-x-x-7-7--7-7-7-x-x--|   x2
A|-9--9--x-x-9-9--9-9--x-x-9--9--x-x-9-9--9-9-9-x-x--|
E|---------------------------------------------------|
video
Hide picture