Farhat Guitar
Online Private Lessons – Contact Me
Prof. Marcos Farhat
+(54 911) 6577-1480

Guns and Roses| Paradise City
 Estilo:  Hard Rock    
Eb|----------------|-----------------|------------6-------|-----3--------|-----5-8-----------------------------|
Bb|----------------|-----------------|-----3—6--6---------|-------6/8--8-|-8b10----8pb10-5-8-----5-8-----------|
Gb|---------3------|-5b7--3--5b7r5-3-|-5b7----------5b7r5-|-3h4----------|-------------------7b9-----7b9r7-5---|
Db|3b5-5-5---5p3---|-------5---------|--------------------|--------------|-----------------------------------7-|
Ab|--------------5-|-----------------|--------------------|--------------|-------------------------------------|
Eb|----------------|-----------------|--------------------|--------------|-------------------------------------|

Eb|--------------------------------|------3-----------3-------3----|
Bb|--------------------------------|-5b6----3---5b6-----3—5b6--3-5-|
Gb|-7-5----------------------------|-5b6--------5b6-------5b6----5-|
Db|-----7-5------------------------|-------------------------------|
Ab|---------7-6-5-3-5b---3----5b-3-|-------------------------------|
Eb|------------------------5-------|-------------------------------|
video
Hide picture