Farhat Guitar
Online Private Lessons – Contact Me
Prof. Marcos Farhat
+(54 911) 6577-1480

Emerson, Lake & Palmer| The Sage
 Estilo:  Acústico    
E|-------------0------------|-------------0------------|-------------0------------|------------0--|
B|----------0-----0---------|----------0-----0---------|----------0-----0---------|---------0-----|
G|-------5-----------5------|-------5-----------5------|-------5-----------5------|-------5-------|
D|----2-----------------2---|----3-----------------3---|----2-----------------2---|----3----------|
A|-0------------------------|-0------------------------|-0------------------------|-0-------------|
E|--------------------------|--------------------------|--------------------------|---------------|
E|-------------0------------|-------------0-----|-------------8--7----11/12-|-12-----|
B|----------0-----0---------|----------0----0---|----------7-------10--7/-9-|--9-----|
G|-------5-----------5------|-------5--------5--|-------8-------------------|--------|
D|----2-----------------2---|----3--------------|----7----------------------|--------|
A|-0------------------------|-0-----------------|---------------------------|--------|
E|--------------------------|-------------------|-0-------------------------|--------|
video
Hide picture